  0
SECTION
  2
HEADER
  9
$ACADVER
  1
AC1015
  9
$ACADMAINTVER
 70
     6
  9
$DWGCODEPAGE
  3
ANSI_1254
  9
$INSBASE
 10
0.0
 20
0.0
 30
0.0
  9
$EXTMIN
 10
0.0
 20
0.0
 30
0.0
  9
$EXTMAX
 10
279.4
 20
215.9
 30
0.0
  9
$LIMMIN
 10
0.0
 20
0.0
  9
$LIMMAX
 10
279.4
 20
215.9
  9
$ORTHOMODE
 70
     0
  9
$REGENMODE
 70
     1
  9
$FILLMODE
 70
     1
  9
$QTEXTMODE
 70
     0
  9
$MIRRTEXT
 70
     1
  9
$LTSCALE
 40
1.0
  9
$ATTMODE
 70
     1
  9
$TEXTSIZE
 40
3.5
  9
$TRACEWID
 40
1.0
  9
$TEXTSTYLE
  7
Standard
  9
$CLAYER
  8
0
  9
$CELTYPE
  6
ByLayer
  9
$CECOLOR
 62
   256
  9
$CELTSCALE
 40
1.0
  9
$DISPSILH
 70
     0
  9
$DIMSCALE
 40
1.0
  9
$DIMASZ
 40
3.5
  9
$DIMEXO
 40
1.0
  9
$DIMDLI
 40
3.75
  9
$DIMRND
 40
0.0
  9
$DIMDLE
 40
0.0
  9
$DIMEXE
 40
1.0
  9
$DIMTP
 40
0.0
  9
$DIMTM
 40
0.0
  9
$DIMTXT
 40
3.5
  9
$DIMCEN
 40
2.5
  9
$DIMTSZ
 40
0.0
  9
$DIMTOL
 70
     0
  9
$DIMLIM
 70
     0
  9
$DIMTIH
 70
     1
  9
$DIMTOH
 70
     1
  9
$DIMSE1
 70
     0
  9
$DIMSE2
 70
     0
  9
$DIMTAD
 70
     1
  9
$DIMZIN
 70
     0
  9
$DIMBLK
  1

  9
$DIMASO
 70
     1
  9
$DIMSHO
 70
     1
  9
$DIMPOST
  1

  9
$DIMAPOST
  1

  9
$DIMALT
 70
     0
  9
$DIMALTD
 70
     3
  9
$DIMALTF
 40
0.0393700787
  9
$DIMLFAC
 40
1.0
  9
$DIMTOFL
 70
     1
  9
$DIMTVP
 40
0.0
  9
$DIMTIX
 70
     0
  9
$DIMSOXD
 70
     0
  9
$DIMSAH
 70
     0
  9
$DIMBLK1
  1

  9
$DIMBLK2
  1

  9
$DIMSTYLE
  2
ISO-25
  9
$DIMCLRD
 70
     0
  9
$DIMCLRE
 70
     0
  9
$DIMCLRT
 70
     0
  9
$DIMTFAC
 40
1.0
  9
$DIMGAP
 40
1.524
  9
$DIMJUST
 70
     0
  9
$DIMSD1
 70
     0
  9
$DIMSD2
 70
     0
  9
$DIMTOLJ
 70
     0
  9
$DIMTZIN
 70
     0
  9
$DIMALTZ
 70
     0
  9
$DIMALTTZ
 70
     0
  9
$DIMUPT
 70
     0
  9
$DIMDEC
 70
     2
  9
$DIMTDEC
 70
     2
  9
$DIMALTU
 70
     2
  9
$DIMALTTD
 70
     3
  9
$DIMTXSTY
  7
Standard
  9
$DIMAUNIT
 70
     0
  9
$DIMADEC
 70
     2
  9
$DIMALTRND
 40
0.0
  9
$DIMAZIN
 70
     0
  9
$DIMDSEP
 70
    44
  9
$DIMATFIT
 70
     3
  9
$DIMFRAC
 70
     0
  9
$DIMLDRBLK
  1

  9
$DIMLUNIT
 70
     2
  9
$DIMLWD
 70
    -2
  9
$DIMLWE
 70
    -2
  9
$DIMTMOVE
 70
     0
  9
$LUNITS
 70
     2
  9
$LUPREC
 70
     2
  9
$SKETCHINC
 40
1.0
  9
$FILLETRAD
 40
10.0
  9
$AUNITS
 70
     0
  9
$AUPREC
 70
     2
  9
$MENU
  1
.
  9
$ELEVATION
 40
0.0
  9
$PELEVATION
 40
0.0
  9
$THICKNESS
 40
0.0
  9
$LIMCHECK
 70
     0
  9
$CHAMFERA
 40
0.0
  9
$CHAMFERB
 40
0.0
  9
$CHAMFERC
 40
0.0
  9
$CHAMFERD
 40
0.0
  9
$SKPOLY
 70
     0
  9
$TDCREATE
 40
2458985.654459317
  9
$TDUCREATE
 40
2458985.529459317
  9
$TDUPDATE
 40
2458985.654459641
  9
$TDUUPDATE
 40
2458985.529459641
  9
$TDINDWG
 40
0.0000000116
  9
$TDUSRTIMER
 40
0.0000000116
  9
$USRTIMER
 70
     1
  9
$ANGBASE
 50
0.0
  9
$ANGDIR
 70
     0
  9
$PDMODE
 70
     0
  9
$PDSIZE
 40
-1.0
  9
$PLINEWID
 40
0.0
  9
$SPLFRAME
 70
     0
  9
$SPLINETYPE
 70
     6
  9
$SPLINESEGS
 70
     8
  9
$HANDSEED
  5
C0
  9
$SURFTAB1
 70
     6
  9
$SURFTAB2
 70
     6
  9
$SURFTYPE
 70
     6
  9
$SURFU
 70
     6
  9
$SURFV
 70
     6
  9
$UCSBASE
  2

  9
$UCSNAME
  2

  9
$UCSORG
 10
0.0
 20
0.0
 30
0.0
  9
$UCSXDIR
 10
1.0
 20
0.0
 30
0.0
  9
$UCSYDIR
 10
0.0
 20
1.0
 30
0.0
  9
$UCSORTHOREF
  2

  9
$UCSORTHOVIEW
 70
     0
  9
$UCSORGTOP
 10
0.0
 20
0.0
 30
0.0
  9
$UCSORGBOTTOM
 10
0.0
 20
0.0
 30
0.0
  9
$UCSORGLEFT
 10
0.0
 20
0.0
 30
0.0
  9
$UCSORGRIGHT
 10
0.0
 20
0.0
 30
0.0
  9
$UCSORGFRONT
 10
0.0
 20
0.0
 30
0.0
  9
$UCSORGBACK
 10
0.0
 20
0.0
 30
0.0
  9
$PUCSBASE
  2

  9
$PUCSNAME
  2

  9
$PUCSORG
 10
0.0
 20
0.0
 30
0.0
  9
$PUCSXDIR
 10
1.0
 20
0.0
 30
0.0
  9
$PUCSYDIR
 10
0.0
 20
1.0
 30
0.0
  9
$PUCSORTHOREF
  2

  9
$PUCSORTHOVIEW
 70
     0
  9
$PUCSORGTOP
 10
0.0
 20
0.0
 30
0.0
  9
$PUCSORGBOTTOM
 10
0.0
 20
0.0
 30
0.0
  9
$PUCSORGLEFT
 10
0.0
 20
0.0
 30
0.0
  9
$PUCSORGRIGHT
 10
0.0
 20
0.0
 30
0.0
  9
$PUCSORGFRONT
 10
0.0
 20
0.0
 30
0.0
  9
$PUCSORGBACK
 10
0.0
 20
0.0
 30
0.0
  9
$USERI1
 70
     0
  9
$USERI2
 70
     0
  9
$USERI3
 70
     0
  9
$USERI4
 70
     0
  9
$USERI5
 70
     0
  9
$USERR1
 40
0.0
  9
$USERR2
 40
0.0
  9
$USERR3
 40
0.0
  9
$USERR4
 40
0.0
  9
$USERR5
 40
0.0
  9
$WORLDVIEW
 70
     1
  9
$SHADEDGE
 70
     3
  9
$SHADEDIF
 70
    70
  9
$TILEMODE
 70
     1
  9
$MAXACTVP
 70
    64
  9
$PINSBASE
 10
0.0
 20
0.0
 30
0.0
  9
$PLIMCHECK
 70
     0
  9
$PEXTMIN
 10
1.0000000000E+20
 20
1.0000000000E+20
 30
1.0000000000E+20
  9
$PEXTMAX
 10
-1.0000000000E+20
 20
-1.0000000000E+20
 30
-1.0000000000E+20
  9
$PLIMMIN
 10
0.0
 20
0.0
  9
$PLIMMAX
 10
420.0
 20
297.0
  9
$UNITMODE
 70
     0
  9
$VISRETAIN
 70
     1
  9
$PLINEGEN
 70
     0
  9
$PSLTSCALE
 70
     1
  9
$TREEDEPTH
 70
  3020
  9
$CMLSTYLE
  2
Standard
  9
$CMLJUST
 70
     0
  9
$CMLSCALE
 40
20.0
  9
$PROXYGRAPHICS
 70
     1
  9
$MEASUREMENT
 70
     1
  9
$CELWEIGHT
370
    -1
  9
$ENDCAPS
280
     0
  9
$JOINSTYLE
280
     0
  9
$LWDISPLAY
290
     1
  9
$INSUNITS
 70
     4
  9
$HYPERLINKBASE
  1

  9
$STYLESHEET
  1

  9
$XEDIT
290
     1
  9
$CEPSNTYPE
380
     0
  9
$PSTYLEMODE
290
     1
  9
$FINGERPRINTGUID
  2
{7df177a1-faad-4cbf-8829-5f78c4d74001}
  9
$VERSIONGUID
  2
{FAEB1C32-E019-11D5-929B-00C0DF256EC4}
  9
$EXTNAMES
290
     1
  9
$PSVPSCALE
 40
0.0
  9
$OLESTARTUP
290
     0
  0
ENDSEC
  0
SECTION
  2
CLASSES
  0
CLASS
  1
ACDBDICTIONARYWDFLT
  2
AcDbDictionaryWithDefault
  3
ObjectDBX Classes
 90
        0
280
     0
281
     0
  0
CLASS
  1
VISUALSTYLE
  2
AcDbVisualStyle
  3
ObjectDBX Classes
 90
     4095
280
     0
281
     0
  0
CLASS
  1
MATERIAL
  2
AcDbMaterial
  3
ObjectDBX Classes
 90
     1153
280
     0
281
     0
  0
CLASS
  1
SCALE
  2
AcDbScale
  3
ObjectDBX Classes
 90
     1153
280
     0
281
     0
  0
CLASS
  1
TABLESTYLE
  2
AcDbTableStyle
  3
ObjectDBX Classes
 90
     4095
280
     0
281
     0
  0
CLASS
  1
MLEADERSTYLE
  2
AcDbMLeaderStyle
  3
ACDB_MLEADERSTYLE_CLASS
 90
     4095
280
     0
281
     0
  0
CLASS
  1
SUN
  2
AcDbSun
  3
SCENEOE
 90
     1153
280
     0
281
     0
  0
CLASS
  1
ACDBPLACEHOLDER
  2
AcDbPlaceHolder
  3
ObjectDBX Classes
 90
        0
280
     0
281
     0
  0
CLASS
  1
LAYOUT
  2
AcDbLayout
  3
ObjectDBX Classes
 90
        0
280
     0
281
     0
  0
ENDSEC
  0
SECTION
  2
TABLES
  0
TABLE
  2
VPORT
  5
8
330
0
100
AcDbSymbolTable
 70
     1
  0
VPORT
  5
29
330
8
100
AcDbSymbolTableRecord
100
AcDbViewportTableRecord
  2
*Active
 70
     0
 10
0.0
 20
0.0
 11
1.0
 21
1.0
 12
139.7
 22
107.95
 13
0.0
 23
0.0
 14
10.0
 24
10.0
 15
10.0
 25
10.0
 16
0.0
 26
0.0
 36
1.0
 17
0.0
 27
0.0
 37
0.0
 40
215.9
 41
1.2941176471
 42
50.0
 43
0.0
 44
0.0
 50
0.0
 51
0.0
 71
     0
 72
  2000
 73
     1
 74
     3
 75
     0
 76
     0
 77
     0
 78
     0
281
     0
 65
     1
110
0.0
120
0.0
130
0.0
111
1.0
121
0.0
131
0.0
112
0.0
122
1.0
132
0.0
 79
     0
146
0.0
  0
ENDTAB
  0
TABLE
  2
LTYPE
  5
5
330
0
100
AcDbSymbolTable
 70
     6
  0
LTYPE
  5
14
330
5
100
AcDbSymbolTableRecord
100
AcDbLinetypeTableRecord
  2
ByBlock
 70
     0
  3

 72
    65
 73
     0
 40
0.0
  0
LTYPE
  5
15
330
5
100
AcDbSymbolTableRecord
100
AcDbLinetypeTableRecord
  2
ByLayer
 70
     0
  3

 72
    65
 73
     0
 40
0.0
  0
LTYPE
  5
16
330
5
100
AcDbSymbolTableRecord
100
AcDbLinetypeTableRecord
  2
Continuous
 70
     0
  3
Solid line
 72
    65
 73
     0
 40
0.0
  0
LTYPE
  5
6E
330
5
100
AcDbSymbolTableRecord
100
AcDbLinetypeTableRecord
  2
HIDDEN
 70
     0
  3
Hidden __ __ __ __ __ __ __ __ __ __ __ __ __ __
 72
    65
 73
     2
 40
1.905
 49
1.27
 74
     0
 49
-0.635
 74
     0
  0
LTYPE
  5
6F
330
5
100
AcDbSymbolTableRecord
100
AcDbLinetypeTableRecord
  2
PHANTOM
 70
     0
  3
Phantom ______  __  __  ______  __  __  ______
 72
    65
 73
     6
 40
12.7
 49
6.35
 74
     0
 49
-1.27
 74
     0
 49
1.27
 74
     0
 49
-1.27
 74
     0
 49
1.27
 74
     0
 49
-1.27
 74
     0
  0
LTYPE
  5
70
330
5
100
AcDbSymbolTableRecord
100
AcDbLinetypeTableRecord
  2
CENTER
 70
     0
  3
Center ____ _ ____ _ ____ _ ____ _ ____ _ ____
 72
    65
 73
     4
 40
10.16
 49
6.35
 74
     0
 49
-1.27
 74
     0
 49
1.27
 74
     0
 49
-1.27
 74
     0
  0
LTYPE
  5
71
330
5
100
AcDbSymbolTableRecord
100
AcDbLinetypeTableRecord
  2
CENTERX2
 70
     0
  3
Center (2x) ________  __  ________  __  _____
 72
    65
 73
     4
 40
20.32
 49
12.7
 74
     0
 49
-2.54
 74
     0
 49
2.54
 74
     0
 49
-2.54
 74
     0
  0
LTYPE
  5
72
330
5
100
AcDbSymbolTableRecord
100
AcDbLinetypeTableRecord
  2
DOT2
 70
     0
  3
Dot (.5x) ........................................
 72
    65
 73
     2
 40
0.635
 49
0.0
 74
     0
 49
-0.635
 74
     0
  0
ENDTAB
  0
TABLE
  2
LAYER
  5
2
330
0
100
AcDbSymbolTable
 70
    17
  0
LAYER
  5
10
330
2
100
AcDbSymbolTableRecord
100
AcDbLayerTableRecord
  2
0
 70
     0
 62
     7
  6
Continuous
370
    -3
390
F
  0
LAYER
  5
73
330
2
100
AcDbSymbolTableRecord
100
AcDbLayerTableRecord
  2
FORMAT
 70
     0
 62
     7
  6
Continuous
370
    -3
390
F
  0
LAYER
  5
74
330
2
100
AcDbSymbolTableRecord
100
AcDbLayerTableRecord
  2
YARDIMCI_GEOMETRI
 70
     0
 62
    -6
  6
Continuous
290
     0
370
    -3
390
F
  0
LAYER
  5
75
330
2
100
AcDbSymbolTableRecord
100
AcDbLayerTableRecord
  2
SAYFA_CERCEVESI
 70
     0
 62
     7
  6
Continuous
370
    25
390
F
  0
LAYER
  5
76
330
2
100
AcDbSymbolTableRecord
100
AcDbLayerTableRecord
  2
ANTET
 70
     0
 62
     7
  6
Continuous
370
    -3
390
F
  0
LAYER
  5
77
330
2
100
AcDbSymbolTableRecord
100
AcDbLayerTableRecord
  2
OLCU
 70
     0
 62
   150
  6
Continuous
370
    -3
390
F
  0
LAYER
  5
78
330
2
100
AcDbSymbolTableRecord
100
AcDbLayerTableRecord
  2
METIN
 70
     0
 62
    96
  6
Continuous
370
    -3
390
F
  0
LAYER
  5
79
330
2
100
AcDbSymbolTableRecord
100
AcDbLayerTableRecord
  2
BALON
 70
     0
 62
     5
  6
Continuous
370
    -3
390
F
  0
LAYER
  5
7A
330
2
100
AcDbSymbolTableRecord
100
AcDbLayerTableRecord
  2
VURGU
 70
     0
 62
     7
  6
Continuous
370
    -3
390
F
  0
LAYER
  5
7B
330
2
100
AcDbSymbolTableRecord
100
AcDbLayerTableRecord
  2
SILIK
 70
     0
 62
     7
  6
Continuous
370
    -3
390
F
  0
LAYER
  5
7C
330
2
100
AcDbSymbolTableRecord
100
AcDbLayerTableRecord
  2
MODEL
 70
     0
 62
     7
  6
Continuous
370
    -3
390
F
  0
LAYER
  5
7D
330
2
100
AcDbSymbolTableRecord
100
AcDbLayerTableRecord
  2
DETAYLANDıRMA
 70
     0
 62
   190
  6
Continuous
370
    -3
390
F
  0
LAYER
  5
7E
330
2
100
AcDbSymbolTableRecord
100
AcDbLayerTableRecord
  2
TOLERANS
 70
     0
 62
   230
  6
Continuous
370
    -3
390
F
  0
LAYER
  5
7F
330
2
100
AcDbSymbolTableRecord
100
AcDbLayerTableRecord
  2
MERKEZ_CIZGILERI
 70
     0
 62
    30
  6
Continuous
370
    -3
390
F
  0
LAYER
  5
80
330
2
100
AcDbSymbolTableRecord
100
AcDbLayerTableRecord
  2
KESIT-DETAY_CIZGILERI
 70
     0
 62
     7
  6
Continuous
370
    -3
390
F
  0
LAYER
  5
81
330
2
100
AcDbSymbolTableRecord
100
AcDbLayerTableRecord
  2
\U+041E\U+0421\U+0415\U+0412\U+042B\U+0415
 70
     0
 62
     7
  6
Continuous
370
    -3
390
F
  0
LAYER
  5
82
330
2
100
AcDbSymbolTableRecord
100
AcDbLayerTableRecord
  2
\U+0412\U+041E\U+0414\U+042F\U+041D\U+042B\U+0415_\U+0417\U+041D\U+0410\U+041A\U+0418
 70
     0
 62
    11
  6
Continuous
370
    -3
390
F
  0
ENDTAB
  0
TABLE
  2
STYLE
  5
3
330
0
100
AcDbSymbolTable
 70
     1
  0
STYLE
  5
11
330
3
100
AcDbSymbolTableRecord
100
AcDbTextStyleTableRecord
  2
Standard
 70
     0
 40
0.0
 41
1.0
 50
0.0
 71
     0
 42
3.5
  3
txt
  4

  0
ENDTAB
  0
TABLE
  2
VIEW
  5
6
330
0
100
AcDbSymbolTable
 70
     0
  0
ENDTAB
  0
TABLE
  2
UCS
  5
7
330
0
100
AcDbSymbolTable
 70
     0
  0
ENDTAB
  0
TABLE
  2
APPID
  5
9
330
0
100
AcDbSymbolTable
 70
     1
  0
APPID
  5
12
330
9
100
AcDbSymbolTableRecord
100
AcDbRegAppTableRecord
  2
ACAD
 70
     0
  0
ENDTAB
  0
TABLE
  2
DIMSTYLE
  5
A
330
0
100
AcDbSymbolTable
 70
     1
100
AcDbDimStyleTable
  0
DIMSTYLE
105
27
330
A
100
AcDbSymbolTableRecord
100
AcDbDimStyleTableRecord
  2
ISO-25
 70
     0
 41
2.5
 42
0.625
 43
3.75
 44
1.25
 73
     0
 74
     0
 77
     1
 78
     8
140
2.5
141
2.5
143
0.0393700787
147
0.625
171
     3
172
     1
178
     0
271
     2
272
     2
274
     3
278
    44
283
     0
284
     8
340
11
  0
ENDTAB
  0
TABLE
  2
BLOCK_RECORD
  5
1
330
0
100
AcDbSymbolTable
 70
     1
  0
BLOCK_RECORD
  5
1F
330
1
100
AcDbSymbolTableRecord
100
AcDbBlockTableRecord
  2
*Model_Space
340
22
  0
BLOCK_RECORD
  5
1B
330
1
100
AcDbSymbolTableRecord
100
AcDbBlockTableRecord
  2
*Paper_Space
340
1E
  0
BLOCK_RECORD
  5
23
330
1
100
AcDbSymbolTableRecord
100
AcDbBlockTableRecord
  2
*Paper_Space0
340
26
  0
ENDTAB
  0
ENDSEC
  0
SECTION
  2
BLOCKS
  0
BLOCK
  5
20
330
1F
100
AcDbEntity
  8
0
100
AcDbBlockBegin
  2
*Model_Space
 70
     0
 10
0.0
 20
0.0
 30
0.0
  3
*Model_Space
  1

  0
ENDBLK
  5
21
330
1F
100
AcDbEntity
  8
0
100
AcDbBlockEnd
  0
BLOCK
  5
1C
330
1B
100
AcDbEntity
 67
     1
  8
0
100
AcDbBlockBegin
  2
*Paper_Space
 70
     0
 10
0.0
 20
0.0
 30
0.0
  3
*Paper_Space
  1

  0
ENDBLK
  5
1D
330
1B
100
AcDbEntity
 67
     1
  8
0
100
AcDbBlockEnd
  0
BLOCK
  5
24
330
23
100
AcDbEntity
  8
0
100
AcDbBlockBegin
  2
*Paper_Space0
 70
     0
 10
0.0
 20
0.0
 30
0.0
  3
*Paper_Space0
  1

  0
ENDBLK
  5
25
330
23
100
AcDbEntity
  8
0
100
AcDbBlockEnd
  0
ENDSEC
  0
SECTION
  2
ENTITIES
  0
CIRCLE
  5
83
330
1F
100
AcDbEntity
  8
0
  6
Continuous
 62
     7
370
    25
100
AcDbCircle
 10
135.9944086538
 20
101.5986126176
 30
0.0
 40
280.0
  0
CIRCLE
  5
84
330
1F
100
AcDbEntity
  8
0
  6
Continuous
 62
     7
370
    25
100
AcDbCircle
 10
135.9944086538
 20
101.5986126176
 30
0.0
 40
246.8
  0
CIRCLE
  5
85
330
1F
100
AcDbEntity
  8
0
  6
Continuous
 62
     7
370
    25
100
AcDbCircle
 10
135.9944086538
 20
101.5986126176
 30
0.0
 40
290.0
  0
CIRCLE
  5
86
330
1F
100
AcDbEntity
  8
0
  6
Continuous
 62
     7
370
    25
100
AcDbCircle
 10
135.9944086538
 20
101.5986126176
 30
0.0
 40
327.0
  0
LINE
  5
87
330
1F
100
AcDbEntity
  8
0
  6
Continuous
 62
     7
370
    25
100
AcDbLine
 10
462.9944086538
 20
767.0198088349
 30
0.0
 11
462.9944086538
 21
847.0198088349
 31
0.0
  0
LINE
  5
88
330
1F
100
AcDbEntity
  8
0
  6
Continuous
 62
     7
370
    25
100
AcDbLine
 10
-191.0055913462
 20
847.0198088349
 30
0.0
 11
-191.0055913462
 21
767.0198088349
 31
0.0
  0
LINE
  5
89
330
1F
100
AcDbEntity
  8
0
  6
Continuous
 62
     7
370
    25
100
AcDbLine
 10
425.9944086538
 20
847.0198088349
 30
0.0
 11
415.9944086538
 21
942.0198088349
 31
0.0
  0
LINE
  5
8A
330
1F
100
AcDbEntity
  8
0
  6
Continuous
 62
     7
370
    25
100
AcDbLine
 10
-144.0055913462
 20
942.0198088349
 30
0.0
 11
-154.0055913462
 21
847.0198088349
 31
0.0
  0
LINE
  5
8B
330
1F
100
AcDbEntity
  8
0
  6
Continuous
 62
     7
370
    25
100
AcDbLine
 10
415.9944086538
 20
942.0198088349
 30
0.0
 11
415.9944086538
 21
1190.0198088349
 31
0.0
  0
LINE
  5
8C
330
1F
100
AcDbEntity
  8
0
  6
Continuous
 62
     7
370
    25
100
AcDbLine
 10
-144.0055913462
 20
1190.0198088349
 30
0.0
 11
-144.0055913462
 21
942.0198088349
 31
0.0
  0
LINE
  5
8D
330
1F
100
AcDbEntity
  8
0
  6
Continuous
 62
     7
370
    25
100
AcDbLine
 10
462.9944086538
 20
767.0198088349
 30
0.0
 11
-191.0055913462
 21
767.0198088349
 31
0.0
  0
LINE
  5
8E
330
1F
100
AcDbEntity
  8
0
  6
Continuous
 62
     7
370
    25
100
AcDbLine
 10
462.9944086538
 20
847.0198088349
 30
0.0
 11
-191.0055913462
 21
847.0198088349
 31
0.0
  0
LINE
  5
8F
330
1F
100
AcDbEntity
  8
0
  6
Continuous
 62
     7
370
    25
100
AcDbLine
 10
415.9944086538
 20
942.0198088349
 30
0.0
 11
-144.0055913462
 21
942.0198088349
 31
0.0
  0
LINE
  5
90
330
1F
100
AcDbEntity
  8
0
  6
Continuous
 62
     7
370
    25
100
AcDbLine
 10
415.9944086538
 20
1190.0198088349
 30
0.0
 11
-144.0055913462
 21
1190.0198088349
 31
0.0
  0
LINE
  5
91
330
1F
100
AcDbEntity
  8
0
  6
Continuous
 62
     7
370
    25
100
AcDbLine
 10
-513.5553798487
 20
428.5986126176
 30
0.0
 11
-593.5553798487
 21
428.5986126176
 31
0.0
  0
LINE
  5
92
330
1F
100
AcDbEntity
  8
0
  6
Continuous
 62
     7
370
    25
100
AcDbLine
 10
-593.5553798487
 20
-225.4013873824
 30
0.0
 11
-513.5553798487
 21
-225.4013873824
 31
0.0
  0
LINE
  5
93
330
1F
100
AcDbEntity
  8
0
  6
Continuous
 62
     7
370
    25
100
AcDbLine
 10
-593.5553798487
 20
391.5986126176
 30
0.0
 11
-688.5553798487
 21
381.5986126176
 31
0.0
  0
LINE
  5
94
330
1F
100
AcDbEntity
  8
0
  6
Continuous
 62
     7
370
    25
100
AcDbLine
 10
-688.5553798487
 20
-178.4013873824
 30
0.0
 11
-593.5553798487
 21
-188.4013873824
 31
0.0
  0
LINE
  5
95
330
1F
100
AcDbEntity
  8
0
  6
Continuous
 62
     7
370
    25
100
AcDbLine
 10
-688.5553798487
 20
381.5986126176
 30
0.0
 11
-936.5553798487
 21
381.5986126176
 31
0.0
  0
LINE
  5
96
330
1F
100
AcDbEntity
  8
0
  6
Continuous
 62
     7
370
    25
100
AcDbLine
 10
-936.5553798487
 20
-178.4013873824
 30
0.0
 11
-688.5553798487
 21
-178.4013873824
 31
0.0
  0
LINE
  5
97
330
1F
100
AcDbEntity
  8
0
  6
Continuous
 62
     7
370
    25
100
AcDbLine
 10
-513.5553798487
 20
428.5986126176
 30
0.0
 11
-513.5553798487
 21
-225.4013873824
 31
0.0
  0
LINE
  5
98
330
1F
100
AcDbEntity
  8
0
  6
Continuous
 62
     7
370
    25
100
AcDbLine
 10
-593.5553798487
 20
428.5986126176
 30
0.0
 11
-593.5553798487
 21
-225.4013873824
 31
0.0
  0
LINE
  5
99
330
1F
100
AcDbEntity
  8
0
  6
Continuous
 62
     7
370
    25
100
AcDbLine
 10
-688.5553798487
 20
381.5986126176
 30
0.0
 11
-688.5553798487
 21
-178.4013873824
 31
0.0
  0
LINE
  5
9A
330
1F
100
AcDbEntity
  8
0
  6
Continuous
 62
     7
370
    25
100
AcDbLine
 10
-936.5553798487
 20
381.5986126176
 30
0.0
 11
-936.5553798487
 21
-178.4013873824
 31
0.0
  0
LINE
  5
9B
330
1F
100
AcDbEntity
  8
0
  6
Continuous
 62
     7
370
    25
100
AcDbLine
 10
-191.0055913462
 20
-618.7879964947
 30
0.0
 11
-191.0055913462
 21
-698.7879964947
 31
0.0
  0
LINE
  5
9C
330
1F
100
AcDbEntity
  8
0
  6
Continuous
 62
     7
370
    25
100
AcDbLine
 10
462.9944086538
 20
-698.7879964947
 30
0.0
 11
462.9944086538
 21
-618.7879964947
 31
0.0
  0
LINE
  5
9D
330
1F
100
AcDbEntity
  8
0
  6
Continuous
 62
     7
370
    25
100
AcDbLine
 10
-154.0055913462
 20
-698.7879964947
 30
0.0
 11
-144.0055913462
 21
-793.7879964947
 31
0.0
  0
LINE
  5
9E
330
1F
100
AcDbEntity
  8
0
  6
Continuous
 62
     7
370
    25
100
AcDbLine
 10
415.9944086538
 20
-793.7879964947
 30
0.0
 11
425.9944086538
 21
-698.7879964947
 31
0.0
  0
LINE
  5
9F
330
1F
100
AcDbEntity
  8
0
  6
Continuous
 62
     7
370
    25
100
AcDbLine
 10
-144.0055913462
 20
-793.7879964947
 30
0.0
 11
-144.0055913462
 21
-1041.7879964947
 31
0.0
  0
LINE
  5
A0
330
1F
100
AcDbEntity
  8
0
  6
Continuous
 62
     7
370
    25
100
AcDbLine
 10
415.9944086538
 20
-1041.7879964947
 30
0.0
 11
415.9944086538
 21
-793.7879964947
 31
0.0
  0
LINE
  5
A1
330
1F
100
AcDbEntity
  8
0
  6
Continuous
 62
     7
370
    25
100
AcDbLine
 10
-191.0055913462
 20
-618.7879964947
 30
0.0
 11
462.9944086538
 21
-618.7879964947
 31
0.0
  0
LINE
  5
A2
330
1F
100
AcDbEntity
  8
0
  6
Continuous
 62
     7
370
    25
100
AcDbLine
 10
-191.0055913462
 20
-698.7879964947
 30
0.0
 11
462.9944086538
 21
-698.7879964947
 31
0.0
  0
LINE
  5
A3
330
1F
100
AcDbEntity
  8
0
  6
Continuous
 62
     7
370
    25
100
AcDbLine
 10
-144.0055913462
 20
-793.7879964947
 30
0.0
 11
415.9944086538
 21
-793.7879964947
 31
0.0
  0
LINE
  5
A4
330
1F
100
AcDbEntity
  8
0
  6
Continuous
 62
     7
370
    25
100
AcDbLine
 10
-144.0055913462
 20
-1041.7879964947
 30
0.0
 11
415.9944086538
 21
-1041.7879964947
 31
0.0
  0
LINE
  5
A5
330
1F
100
AcDbEntity
  8
0
  6
Continuous
 62
     7
370
    25
100
AcDbLine
 10
853.0179194793
 20
-225.4013873824
 30
0.0
 11
933.0179194793
 21
-225.4013873824
 31
0.0
  0
LINE
  5
A6
330
1F
100
AcDbEntity
  8
0
  6
Continuous
 62
     7
370
    25
100
AcDbLine
 10
933.0179194793
 20
428.5986126176
 30
0.0
 11
853.0179194793
 21
428.5986126176
 31
0.0
  0
LINE
  5
A7
330
1F
100
AcDbEntity
  8
0
  6
Continuous
 62
     7
370
    25
100
AcDbLine
 10
933.0179194793
 20
-188.4013873824
 30
0.0
 11
1028.0179194793
 21
-178.4013873824
 31
0.0
  0
LINE
  5
A8
330
1F
100
AcDbEntity
  8
0
  6
Continuous
 62
     7
370
    25
100
AcDbLine
 10
1028.0179194793
 20
381.5986126176
 30
0.0
 11
933.0179194793
 21
391.5986126176
 31
0.0
  0
LINE
  5
A9
330
1F
100
AcDbEntity
  8
0
  6
Continuous
 62
     7
370
    25
100
AcDbLine
 10
1028.0179194793
 20
-178.4013873824
 30
0.0
 11
1276.0179194793
 21
-178.4013873824
 31
0.0
  0
LINE
  5
AA
330
1F
100
AcDbEntity
  8
0
  6
Continuous
 62
     7
370
    25
100
AcDbLine
 10
1276.0179194793
 20
381.5986126176
 30
0.0
 11
1028.0179194793
 21
381.5986126176
 31
0.0
  0
LINE
  5
AB
330
1F
100
AcDbEntity
  8
0
  6
Continuous
 62
     7
370
    25
100
AcDbLine
 10
853.0179194793
 20
101.5986126176
 30
0.0
 11
853.0179194793
 21
428.5986126176
 31
0.0
  0
LINE
  5
AC
330
1F
100
AcDbEntity
  8
0
  6
Continuous
 62
     7
370
    25
100
AcDbLine
 10
853.0179194793
 20
-225.4013873824
 30
0.0
 11
853.0179194793
 21
101.5986126176
 31
0.0
  0
LINE
  5
AD
330
1F
100
AcDbEntity
  8
0
  6
Continuous
 62
     7
370
    25
100
AcDbLine
 10
933.0179194793
 20
101.5986126176
 30
0.0
 11
933.0179194793
 21
428.5986126176
 31
0.0
  0
LINE
  5
AE
330
1F
100
AcDbEntity
  8
0
  6
Continuous
 62
     7
370
    25
100
AcDbLine
 10
933.0179194793
 20
-225.4013873824
 30
0.0
 11
933.0179194793
 21
101.5986126176
 31
0.0
  0
LINE
  5
AF
330
1F
100
AcDbEntity
  8
0
  6
Continuous
 62
     7
370
    25
100
AcDbLine
 10
1028.0179194793
 20
101.5986126176
 30
0.0
 11
1028.0179194793
 21
381.5986126176
 31
0.0
  0
LINE
  5
B0
330
1F
100
AcDbEntity
  8
0
  6
Continuous
 62
     7
370
    25
100
AcDbLine
 10
1028.0179194793
 20
-178.4013873824
 30
0.0
 11
1028.0179194793
 21
101.5986126176
 31
0.0
  0
LINE
  5
B1
330
1F
100
AcDbEntity
  8
0
  6
Continuous
 62
     7
370
    25
100
AcDbLine
 10
1276.0179194793
 20
101.5986126176
 30
0.0
 11
1276.0179194793
 21
381.5986126176
 31
0.0
  0
LINE
  5
B2
330
1F
100
AcDbEntity
  8
0
  6
Continuous
 62
     7
370
    25
100
AcDbLine
 10
1276.0179194793
 20
-178.4013873824
 30
0.0
 11
1276.0179194793
 21
101.5986126176
 31
0.0
  0
LINE
  5
B3
330
1F
100
AcDbEntity
  8
0
  6
Continuous
 62
     7
370
    25
100
AcDbLine
 10
1110.7340740935
 20
-518.2108860964
 30
0.0
 11
935.3715923593
 21
-416.9762802304
 31
0.0
  0
LINE
  5
B4
330
1F
100
AcDbEntity
  8
0
  6
Continuous
 62
     7
370
    25
100
AcDbLine
 10
655.3943472212
 20
-901.9636431636
 30
0.0
 11
830.7568289554
 21
-1003.1982490296
 31
0.0
  0
LINE
  5
B5
330
1F
100
AcDbEntity
  8
0
  6
Continuous
 62
     7
370
    25
100
AcDbLine
 10
1171.7121227201
 20
-542.7950847846
 30
0.0
 11
1105.5157279441
 21
-515.198398987
 31
0.0
  0
LINE
  5
B6
330
1F
100
AcDbEntity
  8
0
  6
Continuous
 62
     7
370
    25
100
AcDbLine
 10
825.538482806
 20
-1000.1857619202
 30
0.0
 11
882.5401956261
 21
-1043.7098297899
 31
0.0
  0
LINE
  5
B7
330
1F
100
AcDbEntity
  8
0
  6
Continuous
 62
     7
370
    25
100
AcDbLine
 10
1257.9758510181
 20
-548.942299349
 30
0.0
 11
1201.4073085232
 21
-516.2859748761
 31
0.0
  0
LINE
  5
B8
330
1F
100
AcDbEntity
  8
0
  6
Continuous
 62
     7
370
    25
100
AcDbLine
 10
874.4338829512
 20
-1082.6819308731
 30
0.0
 11
931.0024254461
 21
-1115.338255346
 31
0.0
  0
LWPOLYLINE
  5
B9
330
1F
100
AcDbEntity
  8
0
  6
Continuous
 62
     7
370
    25
100
AcDbPolyline
 90
       90
 70
   128
 43
0.0
 10
1110.7340740935
 20
-518.2108860964
 10
1113.8168360445
 20
-520.0706790989
 10
1118.5839576213
 20
-523.2817990385
 10
1123.1648039444
 20
-526.7920696365
 10
1127.5536031867
 20
-530.5970679819
 10
1131.7448254986
 20
-534.6919998093
 10
1135.7331899758
 20
-539.0717055398
 10
1139.5136713132
 20
-543.7306667814
 10
1143.0815061367
 20
-548.6630132829
 10
1146.4321990048
 20
-553.8625303298
 10
1149.5615280732
 20
-559.3226665751
 10
1152.465550414
 20
-565.0365422939
 10
1155.1406069839
 20
-570.9969580515
 10
1157.5833272346
 20
-577.1964037752
 10
1159.7906333593
 20
-583.6270682162
 10
1161.7597441712
 20
-590.2808487924
 10
1163.4881786075
 20
-597.1493617971
 10
1164.9737588557
 20
-604.2239529627
 10
1166.2146130973
 20
-611.4957083648
 10
1167.2091778666
 20
-618.9554656537
 10
1167.9562000204
 20
-626.5938255991
 10
1168.4547383173
 20
-634.4011639327
 10
1168.7041646032
 20
-642.367643475
 10
1168.7041646032
 20
-650.4832265298
 10
1168.4547383173
 20
-658.737687532
 10
1167.9562000204
 20
-667.1206259312
 10
1167.2091778666
 20
-675.6214792967
 10
1166.2146130973
 20
-684.229536626
 10
1164.9737588557
 20
-692.9339518404
 10
1163.4881786075
 20
-701.7237574512
 10
1161.7597441712
 20
-710.5878783784
 10
1159.7906333593
 20
-719.5151459055
 10
1157.5833272346
 20
-728.4943117517
 10
1155.1406069839
 20
-737.5140622448
 10
1152.465550414
 20
-746.5630325764
 10
1149.5615280732
 20
-755.6298211211
 10
1146.4321990048
 20
-764.703003803
 10
1143.0815061367
 20
-773.7711484894
 10
1139.5136713132
 20
-782.8228293955
 10
1135.7331899758
 20
-791.8466414809
 10
1131.7448254986
 20
-800.8312148193
 10
1127.5536031867
 20
-809.7652289253
 10
1123.1648039444
 20
-818.6374270175
 10
1118.5839576213
 20
-827.4366302021
 10
1113.8168360445
 20
-836.1517515583
 10
1108.8694457464
 20
-844.7718101077
 10
1103.7480203966
 20
-853.2859446503
 10
1098.4590129472
 20
-861.6834274494
 10
1093.0090875023
 20
-869.9536777483
 10
1087.4051109215
 20
-878.0862751025
 10
1081.6541441673
 20
-886.0709725089
 10
1075.7634334086
 20
-893.8977093168
 10
1069.7404008906
 20
-901.556623905
 10
1063.5926355828
 20
-909.0380661064
 10
1057.327883617
 20
-916.332609368
 10
1050.954038527
 20
-923.4310626275
 10
1044.4791313032
 20
-930.3244818945
 10
1037.9113202732
 20
-937.0041815197
 10
1031.2588808229
 20
-943.4617451386
 10
1024.5301949691
 20
-949.6890362764
 10
1017.7337407984
 20
-955.6782085995
 10
1010.878081785
 20
-961.4217158018
 10
1003.9718560006
 20
-966.9123211135
 10
997.0237652306
 20
-972.1431064188
 10
990.04256401
 20
-977.107480973
 10
983.0370485927
 20
-981.7991897064
 10
976.0160458681
 20
-986.2123211064
 10
968.9884022398
 20
-990.3413146649
 10
961.9629724785
 20
-994.1809678856
 10
954.9486085658
 20
-997.726442838
 10
947.9541485401
 20
-1000.9732722541
 10
940.9884053613
 20
-1003.9173651566
 10
934.0601558063
 20
-1006.5550120136
 10
927.1781294101
 20
-1008.8828894126
 10
920.3509974674
 20
-1010.8980642479
 10
913.5873621059
 20
-1012.5979974167
 10
906.8957454484
 20
-1013.9805470175
 10
900.2845788746
 20
-1015.0439710496
 10
893.7621923979
 20
-1015.786929608
 10
887.3368041695
 20
-1016.2084865712
 10
881.0165101236
 20
-1016.308110781
 10
874.8092737767
 20
-1016.0856767117
 10
868.7229161935
 20
-1015.5414646284
 10
862.7651061326
 20
-1014.6761602336
 10
856.9433503836
 20
-1013.4908538036
 10
851.264984309
 20
-1011.9870388141
 10
845.7371626016
 20
-1010.1666100594
 10
840.3668502694
 20
-1008.0318612641
 10
835.16081386
 20
-1005.5854821933
 10
830.7568289554
 20
-1003.1982490296
  0
LWPOLYLINE
  5
BA
330
1F
100
AcDbEntity
  8
0
  6
Continuous
 62
     7
370
    25
100
AcDbPolyline
 90
      178
 70
   128
 43
0.0
 10
597.393071058
 20
-773.7670973522
 10
597.5178038478
 20
-765.5807858868
 10
597.8918450549
 20
-757.2607756902
 10
598.5147233907
 20
-748.8175499041
 10
599.3856540337
 20
-740.2617469207
 10
600.5035396188
 20
-731.6041469788
 10
601.8669716196
 20
-722.8556585801
 10
603.4742321237
 20
-714.0273047453
 10
605.3232959963
 20
-705.1302091247
 10
607.4118334329
 20
-696.1755819828
 10
609.7372128942
 20
-687.1747060731
 10
612.2965044219
 20
-678.1389224224
 10
615.0864833306
 20
-669.0796160408
 10
618.1036342707
 20
-660.0082015769
 10
621.3441556578
 20
-650.9361089353
 10
624.8039644627
 20
-641.8747688753
 10
628.4787013559
 20
-632.8355986077
 10
632.3637362002
 20
-623.82998741
 10
636.4541738851
 20
-614.8692822751
 10
640.744860494
 20
-605.964773615
 10
645.2303897984
 20
-597.1276810343
 10
649.9051100698
 20
-588.3691391943
 10
654.7631312006
 20
-579.7001837828
 10
659.7983321258
 20
-571.1317376093
 10
665.0043685351
 20
-562.6745968429
 10
670.3746808673
 20
-554.3394174087
 10
675.9025025747
 20
-546.1367015614
 10
681.5808686493
 20
-538.0767846528
 10
687.4026243983
 20
-530.1698221094
 10
693.3604344593
 20
-522.4257766364
 10
699.4467920424
 20
-514.8544056649
 10
705.6540283893
 20
-507.4652490574
 10
711.9743224352
 20
-500.2676170883
 10
718.3997106636
 20
-493.2705787122
 10
724.9220971403
 20
-486.4829501377
 10
731.5332637141
 20
-479.9132837186
 10
738.2248803716
 20
-473.5698571787
 10
744.9885157331
 20
-467.4606631809
 10
751.8156476759
 20
-461.5933992577
 10
758.697674072
 20
-455.9754581112
 10
765.625923627
 20
-450.6139182994
 10
772.5916668058
 20
-445.5155353166
 10
779.5861268315
 20
-440.6867330817
 10
786.6004907443
 20
-436.1335958442
 10
793.6259205055
 20
-431.8618605182
 10
800.6535641339
 20
-427.8769094537
 10
807.6745668584
 20
-424.1837636549
 10
814.6800822757
 20
-420.7870764539
 10
821.6612834963
 20
-417.6911276475
 10
828.6093742663
 20
-414.8998181049
 10
835.5156000507
 20
-412.4166648521
 10
842.3712590642
 20
-410.244796641
 10
849.1677132349
 20
-408.3869500071
 10
855.8963990887
 20
-406.8454658211
 10
862.548838539
 20
-405.62228634
 10
869.1166495689
 20
-404.7189527594
 10
875.5915567927
 20
-404.136603272
 10
881.9654018827
 20
-403.8759716331
 10
888.2301538486
 20
-403.9373862363
 10
894.3779191563
 20
-404.3207696999
 10
900.4009516743
 20
-405.0256389638
 10
906.291662433
 20
-406.0511058989
 10
912.0426291872
 20
-407.3958784255
 10
917.6466057681
 20
-409.0582621419
 10
923.0965312129
 20
-411.0361624586
 10
928.3855386623
 20
-413.3270872383
 10
933.5069640122
 20
-415.9281499353
 10
938.4543543102
 20
-418.8360732329
 10
943.221475887
 20
-422.0471931725
 10
947.8023222101
 20
-425.5574637704
 10
952.1911214524
 20
-429.3624621159
 10
956.3823437643
 20
-433.4573939433
 10
960.3707082415
 20
-437.8370996737
 10
964.1511895789
 20
-442.4960609154
 10
967.7190244024
 20
-447.4284074168
 10
971.0697172705
 20
-452.6279244638
 10
974.1990463389
 20
-458.0880607091
 10
977.1030686797
 20
-463.8019364279
 10
979.7781252497
 20
-469.7623521855
 10
982.2208455003
 20
-475.9617979092
 10
984.428151625
 20
-482.3924623502
 10
986.3972624369
 20
-489.0462429264
 10
988.1256968733
 20
-495.9147559311
 10
989.6112771215
 20
-502.9893470967
 10
990.852131363
 20
-510.2611024987
 10
991.8466961323
 20
-517.7208597877
 10
992.5937182861
 20
-525.3592197331
 10
993.092256583
 20
-533.1665580667
 10
993.341682869
 20
-541.133037609
 10
993.341682869
 20
-549.2486206638
 10
993.092256583
 20
-557.503081666
 10
992.5937182861
 20
-565.8860200652
 10
991.8466961323
 20
-574.3868734307
 10
990.852131363
 20
-582.99493076
 10
989.6112771215
 20
-591.6993459744
 10
988.1256968733
 20
-600.4891515851
 10
986.3972624369
 20
-609.3532725124
 10
984.428151625
 20
-618.2805400395
 10
982.2208455003
 20
-627.2597058857
 10
979.7781252497
 20
-636.2794563788
 10
977.1030686797
 20
-645.3284267104
 10
974.1990463389
 20
-654.3952152551
 10
971.0697172705
 20
-663.468397937
 10
967.7190244024
 20
-672.5365426234
 10
964.1511895789
 20
-681.5882235295
 10
960.3707082415
 20
-690.6120356148
 10
956.3823437643
 20
-699.5966089533
 10
952.1911214524
 20
-708.5306230593
 10
947.8023222101
 20
-717.4028211515
 10
943.221475887
 20
-726.2020243361
 10
938.4543543102
 20
-734.9171456923
 10
933.5069640122
 20
-743.5372042417
 10
928.3855386623
 20
-752.0513387843
 10
923.0965312129
 20
-760.4488215834
 10
917.6466057681
 20
-768.7190718823
 10
912.0426291872
 20
-776.8516692365
 10
906.291662433
 20
-784.8363666429
 10
900.4009516743
 20
-792.6631034508
 10
894.3779191563
 20
-800.322018039
 10
888.2301538486
 20
-807.8034602404
 10
881.9654018827
 20
-815.098003502
 10
875.5915567927
 20
-822.1964567614
 10
869.1166495689
 20
-829.0898760285
 10
862.548838539
 20
-835.7695756537
 10
855.8963990887
 20
-842.2271392726
 10
849.1677132349
 20
-848.4544304104
 10
842.3712590642
 20
-854.4436027335
 10
835.5156000507
 20
-860.1871099358
 10
828.6093742663
 20
-865.6777152475
 10
821.6612834963
 20
-870.9085005528
 10
814.6800822757
 20
-875.8728751069
 10
807.6745668584
 20
-880.5645838404
 10
800.6535641339
 20
-884.9777152404
 10
793.6259205055
 20
-889.1067087989
 10
786.6004907443
 20
-892.9463620195
 10
779.5861268315
 20
-896.491836972
 10
772.5916668058
 20
-899.7386663881
 10
765.625923627
 20
-902.6827592906
 10
758.697674072
 20
-905.3204061475
 10
751.8156476759
 20
-907.6482835465
 10
744.9885157331
 20
-909.6634583819
 10
738.2248803716
 20
-911.3633915506
 10
731.5332637141
 20
-912.7459411514
 10
724.9220971403
 20
-913.8093651836
 10
718.3997106636
 20
-914.552323742
 10
711.9743224352
 20
-914.9738807052
 10
705.6540283893
 20
-915.0735049149
 10
699.4467920424
 20
-914.8510708457
 10
693.3604344593
 20
-914.3068587624
 10
687.4026243983
 20
-913.4415543676
 10
681.5808686493
 20
-912.2562479375
 10
675.9025025747
 20
-910.7524329481
 10
670.3746808673
 20
-908.9320041934
 10
665.0043685351
 20
-906.797255398
 10
659.7983321258
 20
-904.3508763273
 10
654.7631312006
 20
-901.5959493978
 10
649.9051100698
 20
-898.5359457939
 10
645.2303897984
 20
-895.1747210942
 10
640.744860494
 20
-891.5165104128
 10
636.4541738851
 20
-887.5659230641
 10
632.3637362002
 20
-883.3279367543
 10
628.4787013559
 20
-878.8078913098
 10
624.8039644627
 20
-874.0114819494
 10
621.3441556578
 20
-868.9447521079
 10
618.1036342707
 20
-863.6140858214
 10
615.0864833306
 20
-858.0261996839
 10
612.2965044219
 20
-852.1881343842
 10
609.7372128942
 20
-846.1072458347
 10
607.4118334329
 20
-839.7911959029
 10
605.3232959963
 20
-833.2479427577
 10
603.4742321237
 20
-826.4857308423
 10
601.8669716196
 20
-819.5130804856
 10
600.5035396188
 20
-812.3387771677
 10
599.3856540337
 20
-804.9718604493
 10
598.5147233907
 20
-797.4216125825
 10
597.8918450549
 20
-789.6975468151
 10
597.5178038478
 20
-781.8093954039
 10
597.393071058
 20
-773.7670973522
  0
LWPOLYLINE
  5
BB
330
1F
100
AcDbEntity
  8
0
  6
Continuous
 62
     7
370
    25
100
AcDbPolyline
 90
      167
 70
   128
 43
0.0
 10
620.8690161934
 20
-760.2147226959
 10
620.9940109721
 20
-752.516664368
 10
621.3688162546
 20
-744.6853175347
 10
621.9928951357
 20
-736.7319005251
 10
622.8653536286
 20
-728.6678065323
 10
623.9849419448
 20
-720.5045872934
 10
625.3500562849
 20
-712.2539365412
 10
626.9587411357
 20
-703.9276732536
 10
628.8086920717
 20
-695.5377247223
 10
630.897259056
 20
-687.096109468
 10
633.2214502365
 20
-678.614920023
 10
635.7779362316
 20
-670.1063056097
 10
638.5630549
 20
-661.5824547362
 10
641.5728165858
 20
-653.0555777368
 10
644.8029098345
 20
-644.5378892806
 10
648.2487075685
 20
-636.0415908743
 10
651.905273716
 20
-627.5788533835
 10
655.7673702809
 20
-619.1617995982
 10
659.8294648473
 20
-610.8024868669
 10
664.0857385038
 20
-602.5128898244
 10
668.5300941794
 20
-594.3048832387
 10
673.1561653773
 20
-586.1902250002
 10
677.9573252952
 20
-578.1805392787
 10
682.9266963177
 20
-570.2872998717
 10
688.0571598687
 20
-562.5218137687
 10
693.3413666086
 20
-554.8952049538
 10
698.7717469622
 20
-547.4183984706
 10
704.3405219617
 20
-540.1021047723
 10
710.0397143909
 20
-532.9568043792
 10
715.8611602113
 20
-525.9927328654
 10
721.7965202579
 20
-519.2198661961
 10
727.8372921846
 20
-512.6479064376
 10
733.9748226439
 20
-506.286267859
 10
740.2003196824
 20
-500.1440634463
 10
746.5048653357
 20
-494.2300918481
 10
752.8794284027
 20
-488.5528247717
 10
759.3148773834
 20
-483.1203948476
 10
765.801993559
 20
-477.9405839793
 10
772.3314841981
 20
-473.0208121959
 10
778.8939958683
 20
-468.3681270232
 10
785.4801278348
 20
-463.9891933879
 10
792.080445527
 20
-459.8902840701
 10
798.6854940534
 20
-456.0772707181
 10
805.2858117456
 20
-452.5556154367
 10
811.8719437121
 20
-449.3303629632
 10
818.4344553823
 20
-446.4061334407
 10
824.9639460214
 20
-443.7871157997
 10
831.451062197
 20
-441.4770617579
 10
837.8865111777
 20
-439.4792804455
 10
844.2610742448
 20
-437.7966336648
 10
850.565619898
 20
-436.4315317912
 10
856.7911169365
 20
-435.38593032
 10
862.9286473958
 20
-434.6613270652
 10
868.9694193226
 20
-434.2587600141
 10
874.9047793692
 20
-434.1788058399
 10
880.7262251896
 20
-434.4215790764
 10
886.4254176187
 20
-434.9867319532
 10
891.9941926183
 20
-435.8734548942
 10
897.4245729718
 20
-437.0804776773
 10
902.7087797117
 20
-438.6060712541
 10
907.8392432627
 20
-440.4480502265
 10
912.8086142852
 20
-442.6037759773
 10
917.6097742031
 20
-445.0701604501
 10
922.2358454011
 20
-447.843670573
 10
926.6802010766
 20
-450.9203333194
 10
930.9364747331
 20
-454.2957413995
 10
934.9985692995
 20
-457.9650595739
 10
938.8606658645
 20
-461.9230315795
 10
942.5172320119
 20
-466.1639876596
 10
945.963029746
 20
-470.6818526855
 10
949.1931229947
 20
-475.470154859
 10
952.2028846805
 20
-480.5220349833
 10
954.9880033488
 20
-485.830256289
 10
957.544489344
 20
-491.3872148
 10
959.8686805245
 20
-497.1849502269
 10
961.9572475087
 20
-503.2151573695
 10
963.8071984447
 20
-509.4691980141
 10
965.4158832956
 20
-515.9381133078
 10
966.7809976356
 20
-522.6126365917
 10
967.9005859519
 20
-529.4832066755
 10
968.7730444447
 20
-536.5399815338
 10
969.3971233259
 20
-543.7728524045
 10
969.7719286083
 20
-551.1714582698
 10
969.8969233871
 20
-558.7252006981
 10
969.7719286083
 20
-566.4232590261
 10
969.3971233259
 20
-574.2546058593
 10
968.7730444447
 20
-582.2080228689
 10
967.9005859519
 20
-590.2721168617
 10
966.7809976356
 20
-598.4353361006
 10
965.4158832956
 20
-606.6859868528
 10
963.8071984447
 20
-615.0122501405
 10
961.9572475087
 20
-623.4021986717
 10
959.8686805245
 20
-631.8438139261
 10
957.544489344
 20
-640.325003371
 10
954.9880033488
 20
-648.8336177843
 10
952.2028846805
 20
-657.3574686578
 10
949.1931229947
 20
-665.8843456572
 10
945.963029746
 20
-674.4020341134
 10
942.5172320119
 20
-682.8983325197
 10
938.8606658645
 20
-691.3610700105
 10
934.9985692995
 20
-699.7781237958
 10
930.9364747331
 20
-708.1374365272
 10
926.6802010766
 20
-716.4270335697
 10
922.2358454011
 20
-724.6350401553
 10
917.6097742031
 20
-732.7496983938
 10
912.8086142852
 20
-740.7593841154
 10
907.8392432627
 20
-748.6526235223
 10
902.7087797117
 20
-756.4181096253
 10
897.4245729718
 20
-764.0447184402
 10
891.9941926183
 20
-771.5215249235
 10
886.4254176187
 20
-778.8378186217
 10
880.7262251896
 20
-785.9831190148
 10
874.9047793692
 20
-792.9471905286
 10
868.9694193226
 20
-799.7200571979
 10
862.9286473958
 20
-806.2920169564
 10
856.7911169365
 20
-812.653655535
 10
850.565619898
 20
-818.7958599477
 10
844.2610742448
 20
-824.709831546
 10
837.8865111777
 20
-830.3870986223
 10
831.451062197
 20
-835.8195285465
 10
824.9639460214
 20
-840.9993394148
 10
818.4344553823
 20
-845.9191111981
 10
811.8719437121
 20
-850.5717963708
 10
805.2858117456
 20
-854.9507300062
 10
798.6854940534
 20
-859.0496393239
 10
792.080445527
 20
-862.8626526759
 10
785.4801278348
 20
-866.3843079573
 10
778.8939958683
 20
-869.6095604308
 10
772.3314841981
 20
-872.5337899534
 10
765.801993559
 20
-875.1528075943
 10
759.3148773834
 20
-877.4628616361
 10
752.8794284027
 20
-879.4606429486
 10
746.5048653357
 20
-881.1432897293
 10
740.2003196824
 20
-882.5083916028
 10
733.9748226439
 20
-883.553993074
 10
727.8372921846
 20
-884.2785963288
 10
721.7965202579
 20
-884.68116338
 10
715.8611602113
 20
-884.7611175541
 10
710.0397143909
 20
-884.5183443176
 10
704.3405219617
 20
-883.9531914409
 10
698.7717469621
 20
-883.0664684999
 10
693.3413666086
 20
-881.8594457167
 10
688.0571598687
 20
-880.3338521399
 10
682.9266963177
 20
-878.4918731675
 10
677.9573252952
 20
-876.3361474167
 10
673.1561653773
 20
-873.8697629439
 10
668.5300941794
 20
-871.096252821
 10
664.0857385038
 20
-868.0195900746
 10
659.8294648473
 20
-864.6441819945
 10
655.7673702809
 20
-860.9748638201
 10
651.905273716
 20
-857.0168918145
 10
648.2487075685
 20
-852.7759357344
 10
644.8029098345
 20
-848.2580707086
 10
641.5728165858
 20
-843.4697685351
 10
638.5630549
 20
-838.4178884107
 10
635.7779362316
 20
-833.109667105
 10
633.2214502364
 20
-827.552708594
 10
630.897259056
 20
-821.7549731671
 10
628.8086920717
 20
-815.7247660246
 10
626.9587411357
 20
-809.4707253799
 10
625.3500562849
 20
-803.0018100862
 10
623.9849419448
 20
-796.3272868023
 10
622.8653536286
 20
-789.4567167185
 10
621.9928951357
 20
-782.3999418602
 10
621.3688162546
 20
-775.1670709895
 10
620.9940109721
 20
-767.7684651242
 10
620.8690161934
 20
-760.2147226959
  0
ARC
  5
BC
330
1F
100
AcDbEntity
  8
0
  6
Continuous
 62
     7
370
    25
100
AcDbCircle
 10
1253.9760456429
 20
-924.2101092343
 30
0.0
 40
412.4194256817096
100
AcDbArc
 50
135.7274853914
 51
164.2778911413
  0
LWPOLYLINE
  5
BD
330
1F
100
AcDbEntity
  8
0
  6
Continuous
 62
     7
370
    25
100
AcDbPolyline
 90
       96
 70
   128
 43
0.0
 10
1171.7121227201
 20
-542.7950847846
 10
1175.1331646214
 20
-544.2984799623
 10
1180.3679126015
 20
-546.9134788981
 10
1185.4291104683
 20
-549.836196051
 10
1190.3105919319
 20
-553.0630705403
 10
1195.0064096589
 20
-556.5901709164
 10
1199.5108425189
 20
-560.413199951
 10
1203.8184025543
 20
-564.5274998719
 10
1207.9238416667
 20
-568.9280580386
 10
1211.8221580109
 20
-573.6095130488
 10
1215.508602089
 20
-578.5661612705
 10
1218.9786825366
 20
-583.7919637916
 10
1222.2281715954
 20
-589.2805537765
 10
1225.2531102634
 20
-595.0252442239
 10
1228.0498131188
 20
-601.0190361134
 10
1230.6148728099
 20
-607.2546269327
 10
1232.9451642068
 20
-613.7244195751
 10
1235.0378482081
 20
-620.4205315947
 10
1236.890375201
 20
-627.3348048105
 10
1238.5004881665
 20
-634.4588152457
 10
1239.86622543
 20
-641.7838833909
 10
1240.9859230511
 20
-649.301084779
 10
1241.8582168507
 20
-657.0012608579
 10
1242.4820440731
 20
-664.8750301493
 10
1242.8566446811
 20
-672.9127996781
 10
1242.9815622813
 20
-681.1047766603
 10
1242.8566446811
 20
-689.4409804338
 10
1242.4820440731
 20
-697.9112546184
 10
1241.8582168507
 20
-706.5052794897
 10
1240.9859230511
 20
-715.2125845523
 10
1239.86622543
 20
-724.0225612962
 10
1238.5004881665
 20
-732.9244761218
 10
1236.890375201
 20
-741.9074834171
 10
1235.0378482081
 20
-750.9606387715
 10
1232.9451642068
 20
-760.0729123096
 10
1230.6148728099
 20
-769.2332021299
 10
1228.0498131188
 20
-778.4303478302
 10
1225.2531102634
 20
-787.6531441052
 10
1222.2281715954
 20
-796.8903543983
 10
1218.9786825366
 20
-806.1307245916
 10
1215.508602089
 20
-815.3629967174
 10
1211.8221580109
 20
-824.5759226743
 10
1207.9238416667
 20
-833.7582779311
 10
1203.8184025543
 20
-842.8988752023
 10
1199.5108425189
 20
-851.9865780783
 10
1195.0064096589
 20
-861.0103145929
 10
1190.3105919318
 20
-869.9590907131
 10
1185.4291104683
 20
-878.8220037337
 10
1180.3679126015
 20
-887.5882555605
 10
1175.1331646214
 20
-896.2471658658
 10
1169.7312442621
 20
-904.7881851014
 10
1164.1687329315
 20
-913.2009073509
 10
1158.4524076927
 20
-921.475083008
 10
1152.5892330075
 20
-929.6006312645
 10
1146.5863522512
 20
-937.5676523912
 10
1140.4510790093
 20
-945.3664398002
 10
1134.1908881671
 20
-952.9874918704
 10
1127.8134068028
 20
-960.4215235237
 10
1121.3264048952
 20
-967.6594775378
 10
1114.7377858569
 20
-974.6925355804
 10
1108.0555769051
 20
-981.5121289539
 10
1101.2879192823
 20
-988.1099490341
 10
1094.4430583367
 20
-994.4779573936
 10
1087.5293334771
 20
-1000.6083955951
 10
1080.5551680121
 20
-1006.493794644
 10
1073.5290588882
 20
-1012.1269840881
 10
1066.459566337
 20
-1017.5011007539
 10
1059.3553034462
 20
-1022.6095971079
 10
1052.2249256659
 20
-1027.4462492343
 10
1045.0771202629
 20
-1032.0051644174
 10
1037.9205957372
 20
-1036.2807883215
 10
1030.7640712115
 20
-1040.2679117573
 10
1023.6162658085
 20
-1043.9616770291
 10
1016.4858880282
 20
-1047.357583853
 10
1009.3816251374
 20
-1050.4514948395
 10
1002.3121325862
 20
-1053.2396405348
 10
995.2860234623
 20
-1055.7186240127
 10
988.3118579974
 20
-1057.8854250137
 10
981.3981331377
 20
-1059.7374036246
 10
974.5532721921
 20
-1061.2723034948
 10
967.7856145693
 20
-1062.4882545851
 10
961.1034056175
 20
-1063.3837754465
 10
954.5147865792
 20
-1063.9577750247
 10
948.0277846716
 20
-1064.2095539897
 10
941.6503033074
 20
-1064.1388055877
 10
935.3901124652
 20
-1063.7456160145
 10
929.2548392232
 20
-1063.0304643112
 10
923.2519584669
 20
-1061.9942217799
 10
917.3887837817
 20
-1060.6381509226
 10
911.672458543
 20
-1058.9639039027
 10
906.1099472123
 20
-1056.9735205323
 10
900.708026853
 20
-1054.6694257869
 10
895.4732788729
 20
-1052.0544268511
 10
890.4120810061
 20
-1049.1317096982
 10
885.5305995426
 20
-1045.904835209
 10
882.5401956261
 20
-1043.7098297899
  0
LWPOLYLINE
  5
BE
330
1F
100
AcDbEntity
  8
0
  6
Continuous
 62
     7
370
    25
100
AcDbPolyline
 90
       98
 70
   128
 43
0.0
 10
1257.9758510181
 20
-548.942299349
 10
1257.9891382321
 20
-548.9499711411
 10
1263.2511683259
 20
-552.1908397611
 10
1268.3324838108
 20
-555.7314852508
 10
1273.2276434869
 20
-559.5681161984
 10
1277.9314054947
 20
-563.6966242433
 10
1282.438732928
 20
-568.1125884757
 10
1286.7447992277
 20
-572.8112801706
 10
1290.8449933501
 20
-577.7876678511
 10
1294.7349247047
 20
-583.0364226767
 10
1298.4104278555
 20
-588.5519241493
 10
1301.8675669817
 20
-594.3282661316
 10
1305.1026400921
 20
-600.3592631722
 10
1308.1121829894
 20
-606.6384571282
 10
1310.8929729798
 20
-613.1591240815
 10
1313.4420323235
 20
-619.9142815385
 10
1315.7566314241
 20
-626.8966959076
 10
1317.8342917509
 20
-634.0988902445
 10
1319.6727884931
 20
-641.5131522591
 10
1321.2701529423
 20
-649.1315425739
 10
1322.6246746007
 20
-656.9459032258
 10
1323.7349030127
 20
-664.9478664016
 10
1324.5996493177
 20
-673.1288633988
 10
1325.2179875238
 20
-681.4801338008
 10
1325.589255499
 20
-689.9927348582
 10
1325.7130556801
 20
-698.6575510645
 10
1325.589255499
 20
-707.4653039175
 10
1325.2179875238
 20
-716.4065618548
 10
1324.5996493177
 20
-725.4717503534
 10
1323.7349030127
 20
-734.6511621825
 10
1322.6246746007
 20
-743.934967798
 10
1321.2701529423
 20
-753.3132258682
 10
1319.6727884931
 20
-762.7758939195
 10
1317.8342917509
 20
-772.3128390901
 10
1315.7566314241
 20
-781.91384898
 10
1313.4420323235
 20
-791.5686425874
 10
1310.8929729798
 20
-801.2668813176
 10
1308.1121829894
 20
-810.9981800535
 10
1305.1026400921
 20
-820.7521182768
 10
1301.8675669817
 20
-830.518251226
 10
1298.4104278555
 20
-840.2861210814
 10
1294.7349247047
 20
-850.0452681633
 10
1290.8449933501
 20
-859.7852421326
 10
1286.7447992277
 20
-869.4956131812
 10
1282.438732928
 20
-879.1659832005
 10
1277.9314054947
 20
-888.7859969161
 10
1273.2276434869
 20
-898.3453529764
 10
1268.3324838108
 20
-907.8338149834
 10
1263.2511683259
 20
-917.2412224545
 10
1257.9891382321
 20
-926.5575017019
 10
1252.5520282432
 20
-935.7726766207
 10
1246.9456605525
 20
-944.8768793705
 10
1241.1760385992
 20
-953.8603609432
 10
1235.2493406388
 20
-962.7135016016
 10
1229.171913128
 20
-971.426821181
 10
1222.9502639284
 20
-979.9909892405
 10
1216.5910553379
 20
-988.3968350544
 10
1210.1010969561
 20
-996.6353574326
 10
1203.4873383932
 20
-1004.6977343588
 10
1196.7568618275
 20
-1012.575332438
 10
1189.9168744218
 20
-1020.2597161408
 10
1182.974700606
 20
-1027.7426568367
 10
1175.9377742337
 20
-1035.0161416053
 10
1168.8136306219
 20
-1042.0723818169
 10
1161.609898482
 20
-1048.9038214729
 10
1154.3342917509
 20
-1055.5031452964
 10
1146.9946013304
 20
-1061.8632865664
 10
1139.5986867449
 20
-1067.9774346841
 10
1132.154467725
 20
-1073.8390424667
 10
1124.6699157268
 20
-1079.4418331577
 10
1117.1530453962
 20
-1084.7798071485
 10
1109.6119059861
 20
-1089.8472484029
 10
1102.0545727375
 20
-1094.6387305778
 10
1094.4891382321
 20
-1099.1491228342
 10
1086.9237037268
 20
-1103.3735953309
 10
1079.3663704782
 20
-1107.3076243971
 10
1071.8252310681
 20
-1110.9469973759
 10
1064.3083607374
 20
-1114.2878171355
 10
1056.8238087393
 20
-1117.3265062425
 10
1049.3795897194
 20
-1120.0598107924
 10
1041.9836751339
 20
-1122.4848038944
 10
1034.6439847134
 20
-1124.5988888049
 10
1027.3683779822
 20
-1126.3998017091
 10
1020.1646458423
 20
-1127.8856141441
 10
1013.0405022305
 20
-1129.0547350649
 10
1006.0035758582
 20
-1129.9059125475
 10
999.0614020424
 20
-1130.4382351297
 10
992.2214146367
 20
-1130.6511327872
 10
985.490938071
 20
-1130.5443775437
 10
978.8771795081
 20
-1130.1180837156
 10
972.3872211264
 20
-1129.3727077889
 10
966.0280125358
 20
-1128.3090479308
 10
959.8063633363
 20
-1126.9282431349
 10
953.7289358255
 20
-1125.2317720017
 10
947.8022378651
 20
-1123.2214511548
 10
942.0326159117
 20
-1120.8994332962
 10
936.4262482211
 20
-1118.2682049008
 10
931.0024254461
 20
-1115.338255346
  0
LWPOLYLINE
  5
BF
330
1F
100
AcDbEntity
  8
0
  6
Continuous
 62
     7
370
    25
100
AcDbPolyline
 90
      131
 70
   128
 43
0.0
 10
1093.4497061646
 20
-508.2328328799
 10
1097.765749256
 20
-507.0253414172
 10
1105.0413559871
 20
-505.224428513
 10
1112.245088127
 20
-503.738616078
 10
1119.3692317388
 20
-502.5694951572
 10
1126.4061581111
 20
-501.7183176746
 10
1133.3483319269
 20
-501.1859950924
 10
1140.1883193326
 20
-500.973097435
 10
1146.9187958983
 20
-501.0798526784
 10
1153.5325544612
 20
-501.5061465065
 10
1160.0225128429
 20
-502.2515224332
 10
1166.3817214335
 20
-503.3151822913
 10
1172.6033706331
 20
-504.6959870872
 10
1178.6807981439
 20
-506.3924582205
 10
1184.6074961042
 20
-508.4027790673
 10
1190.3771180576
 20
-510.7247969259
 10
1195.9834857482
 20
-513.3560253213
 10
1201.4205957372
 20
-516.2936466682
 10
1206.682625831
 20
-519.5345152882
 10
1211.7639413159
 20
-523.0751607779
 10
1216.659100992
 20
-526.9117917255
 10
1221.3628629998
 20
-531.0402997704
 10
1225.8701904331
 20
-535.4562640028
 10
1230.1762567328
 20
-540.1549556977
 10
1234.2764508552
 20
-545.1313433782
 10
1238.1663822097
 20
-550.3800982038
 10
1241.8418853605
 20
-555.8955996764
 10
1245.2990244867
 20
-561.6719416587
 10
1248.5340975972
 20
-567.7029386993
 10
1251.5436404945
 20
-573.9821326553
 10
1254.3244304848
 20
-580.5027996086
 10
1256.8734898286
 20
-587.2579570656
 10
1259.1880889292
 20
-594.2403714347
 10
1261.265749256
 20
-601.4425657716
 10
1263.1042459981
 20
-608.8568277862
 10
1264.7016104474
 20
-616.475218101
 10
1266.0561321058
 20
-624.2895787529
 10
1267.1663605178
 20
-632.2915419287
 10
1268.0311068228
 20
-640.4725389259
 10
1268.6494450289
 20
-648.8238093279
 10
1269.020713004
 20
-657.3364103853
 10
1269.1445131852
 20
-666.0012265916
 10
1269.020713004
 20
-674.8089794446
 10
1268.6494450289
 20
-683.7502373818
 10
1268.0311068228
 20
-692.8154258805
 10
1267.1663605178
 20
-701.9948377096
 10
1266.0561321058
 20
-711.2786433251
 10
1264.7016104474
 20
-720.6569013953
 10
1263.1042459981
 20
-730.1195694466
 10
1261.265749256
 20
-739.6565146172
 10
1259.1880889292
 20
-749.2575245071
 10
1256.8734898286
 20
-758.9123181145
 10
1254.3244304848
 20
-768.6105568447
 10
1251.5436404945
 20
-778.3418555806
 10
1248.5340975972
 20
-788.0957938039
 10
1245.2990244867
 20
-797.8619267531
 10
1241.8418853605
 20
-807.6297966085
 10
1238.1663822097
 20
-817.3889436904
 10
1234.2764508552
 20
-827.1289176597
 10
1230.1762567328
 20
-836.8392887083
 10
1225.8701904331
 20
-846.5096587276
 10
1221.3628629998
 20
-856.1296724432
 10
1216.659100992
 20
-865.6890285035
 10
1211.7639413158
 20
-875.1774905105
 10
1206.682625831
 20
-884.5848979816
 10
1201.4205957372
 20
-893.901177229
 10
1195.9834857482
 20
-903.1163521477
 10
1190.3771180576
 20
-912.2205548976
 10
1184.6074961042
 20
-921.2040364703
 10
1178.6807981438
 20
-930.0571771287
 10
1172.6033706331
 20
-938.7704967081
 10
1166.3817214335
 20
-947.3346647676
 10
1160.0225128429
 20
-955.7405105815
 10
1153.5325544612
 20
-963.9790329597
 10
1146.9187958983
 20
-972.0414098859
 10
1140.1883193326
 20
-979.9190079651
 10
1133.3483319269
 20
-987.6033916679
 10
1126.4061581111
 20
-995.0863323638
 10
1119.3692317388
 20
-1002.3598171323
 10
1112.245088127
 20
-1009.416057344
 10
1105.0413559871
 20
-1016.247497
 10
1097.765749256
 20
-1022.8468208235
 10
1090.4260588355
 20
-1029.2069620935
 10
1083.03014425
 20
-1035.3211102112
 10
1075.5859252301
 20
-1041.1827179938
 10
1068.1013732319
 20
-1046.7855086848
 10
1060.5845029013
 20
-1052.1234826756
 10
1053.0433634912
 20
-1057.19092393
 10
1045.4860302426
 20
-1061.9824061049
 10
1037.9205957372
 20
-1066.4927983613
 10
1030.3551612319
 20
-1070.717270858
 10
1022.7978279833
 20
-1074.6512999242
 10
1015.2566885732
 20
-1078.2906729029
 10
1007.7398182425
 20
-1081.6314926626
 10
1000.2552662444
 20
-1084.6701817696
 10
992.8110472244
 20
-1087.4034863195
 10
985.4151326389
 20
-1089.8284794215
 10
978.0754422185
 20
-1091.942564332
 10
970.7998354873
 20
-1093.7434772362
 10
963.5961033474
 20
-1095.2292896712
 10
956.4719597356
 20
-1096.398410592
 10
949.4350333633
 20
-1097.2495880746
 10
942.4928595475
 20
-1097.7819106568
 10
935.6528721418
 20
-1097.9948083143
 10
928.9223955761
 20
-1097.8880530708
 10
922.3086370132
 20
-1097.4617592427
 10
915.8186786315
 20
-1096.716383316
 10
909.4594700409
 20
-1095.6527234579
 10
903.2378208413
 20
-1094.271918662
 10
897.1603933306
 20
-1092.5754475288
 10
891.2336953702
 20
-1090.5651266819
 10
885.4640734168
 20
-1088.2431088233
 10
879.8577057262
 20
-1085.6118804279
 10
874.4205957372
 20
-1082.674259081
 10
869.1585656435
 20
-1079.433390461
 10
864.0772501586
 20
-1075.8927449713
 10
859.1820904824
 20
-1072.0561140238
 10
854.4783284746
 20
-1067.9276059788
 10
849.9710010413
 20
-1063.5116417464
 10
845.6649347416
 20
-1058.8129500515
 10
841.5647406192
 20
-1053.836562371
 10
837.6748092647
 20
-1048.5878075454
 10
833.9993061139
 20
-1043.0723060729
 10
830.5421669877
 20
-1037.2959640905
 10
827.3070938773
 20
-1031.26496705
 10
824.2975509799
 20
-1024.985773094
 10
821.5167609896
 20
-1018.4651061407
 10
818.9677016458
 20
-1011.7099486836
 10
816.6531025452
 20
-1004.7275343145
 10
814.5754422185
 20
-997.5253399776
 10
813.4724610265
 20
-993.2201958131
  0
ENDSEC
  0
SECTION
  2
OBJECTS
  0
DICTIONARY
  5
C
330
0
100
AcDbDictionary
281
     1
  3
ACAD_GROUP
350
D
  3
ACAD_LAYOUT
350
1A
  3
ACAD_MLINESTYLE
350
17
  3
ACAD_PLOTSETTINGS
350
19
  3
ACAD_PLOTSTYLENAME
350
E
  3
ACAD_SCALELIST
350
47
  0
DICTIONARY
  5
D
102
{ACAD_REACTORS
330
C
102
}
330
C
100
AcDbDictionary
281
     1
  0
DICTIONARY
  5
1A
102
{ACAD_REACTORS
330
C
102
}
330
C
100
AcDbDictionary
281
     1
  3
Layout1
350
1E
  3
Layout2
350
26
  3
Model
350
22
  0
DICTIONARY
  5
17
102
{ACAD_REACTORS
330
C
102
}
330
C
100
AcDbDictionary
281
     1
  3
Standard
350
18
  0
DICTIONARY
  5
19
102
{ACAD_REACTORS
330
C
102
}
330
C
100
AcDbDictionary
281
     1
  0
ACDBDICTIONARYWDFLT
  5
E
102
{ACAD_REACTORS
330
C
102
}
330
C
100
AcDbDictionary
281
     1
  3
Normal
350
F
100
AcDbDictionaryWithDefault
340
F
  0
DICTIONARY
  5
47
102
{ACAD_REACTORS
330
C
102
}
330
C
100
AcDbDictionary
281
     1
  3
A0
350
48
  3
A1
350
49
  3
A2
350
4A
  3
A3
350
4B
  3
A4
350
4C
  3
A5
350
4D
  3
A6
350
4E
  3
A7
350
4F
  3
A8
350
50
  3
A9
350
51
  3
B0
350
52
  3
B1
350
53
  3
B2
350
54
  3
B3
350
55
  3
B4
350
56
  3
B5
350
57
  3
B6
350
58
  3
B7
350
59
  3
B8
350
5A
  3
B9
350
5B
  3
C0
350
5C
  3
C1
350
5D
  3
C2
350
5E
  3
C3
350
5F
  3
C4
350
60
  3
C5
350
61
  3
C6
350
62
  3
C7
350
63
  3
C8
350
64
  3
C9
350
65
  3
D0
350
66
  3
D1
350
67
  3
D2
350
68
  0
LAYOUT
  5
1E
102
{ACAD_REACTORS
330
1A
102
}
330
1A
100
AcDbPlotSettings
  1

  2
none_device
  4

  6

 40
0.0
 41
0.0
 42
0.0
 43
0.0
 44
0.0
 45
0.0
 46
0.0
 47
0.0
 48
0.0
 49
0.0
140
0.0
141
0.0
142
1.0
143
1.0
 70
   688
 72
     1
 73
     0
 74
     5
  7

 75
    16
147
1.0
148
0.0
149
0.0
100
AcDbLayout
  1
Layout1
 70
     1
 71
     1
 10
0.0
 20
0.0
 11
420.0
 21
297.0
 12
0.0
 22
0.0
 32
0.0
 14
1.0000000000E+20
 24
1.0000000000E+20
 34
1.0000000000E+20
 15
-1.0000000000E+20
 25
-1.0000000000E+20
 35
-1.0000000000E+20
146
0.0
 13
0.0
 23
0.0
 33
0.0
 16
1.0
 26
0.0
 36
0.0
 17
0.0
 27
1.0
 37
0.0
 76
     0
330
1B
  0
LAYOUT
  5
26
102
{ACAD_REACTORS
330
1A
102
}
330
1A
100
AcDbPlotSettings
  1

  2
none_device
  4

  6

 40
0.0
 41
0.0
 42
0.0
 43
0.0
 44
0.0
 45
0.0
 46
0.0
 47
0.0
 48
0.0
 49
0.0
140
0.0
141
0.0
142
1.0
143
1.0
 70
   688
 72
     1
 73
     0
 74
     5
  7

 75
    16
147
1.0
148
0.0
149
0.0
100
AcDbLayout
  1
Layout2
 70
     1
 71
     2
 10
0.0
 20
0.0
 11
0.0
 21
0.0
 12
0.0
 22
0.0
 32
0.0
 14
0.0
 24
0.0
 34
0.0
 15
0.0
 25
0.0
 35
0.0
146
0.0
 13
0.0
 23
0.0
 33
0.0
 16
1.0
 26
0.0
 36
0.0
 17
0.0
 27
1.0
 37
0.0
 76
     0
330
23
  0
LAYOUT
  5
22
102
{ACAD_REACTORS
330
1A
102
}
330
1A
100
AcDbPlotSettings
  1

  2
none_device
  4
Letter_(8.50_x_11.00_Inches)
  6

 40
6.35
 41
6.35
 42
6.35000508
 43
6.35000508
 44
215.9
 45
279.4
 46
0.0
 47
0.0
 48
0.0
 49
0.0
140
0.0
141
0.0
142
1.0
143
1.0
 70
  1712
 72
     1
 73
     0
 74
     0
  7

 75
     0
147
1.0
148
0.0
149
0.0
100
AcDbLayout
  1
Model
 70
     1
 71
     0
 10
0.0
 20
0.0
 11
279.4
 21
215.9
 12
0.0
 22
0.0
 32
0.0
 14
0.0
 24
0.0
 34
0.0
 15
279.4
 25
215.9
 35
0.0
146
0.0
 13
0.0
 23
0.0
 33
0.0
 16
1.0
 26
0.0
 36
0.0
 17
0.0
 27
1.0
 37
0.0
 76
     0
330
1F
331
29
  0
MLINESTYLE
  5
18
102
{ACAD_REACTORS
330
17
102
}
330
17
100
AcDbMlineStyle
  2
Standard
 70
     0
  3

 62
   256
 51
90.0
 52
90.0
 71
     2
 49
0.5
 62
   256
  6
BYLAYER
 49
-0.5
 62
   256
  6
BYLAYER
  0
ACDBPLACEHOLDER
  5
F
102
{ACAD_REACTORS
330
E
102
}
330
E
  0
SCALE
  5
48
102
{ACAD_REACTORS
330
47
102
}
330
47
100
AcDbScale
 70
     0
300
1:1
140
1.0
141
1.0
290
     1
  0
SCALE
  5
49
102
{ACAD_REACTORS
330
47
102
}
330
47
100
AcDbScale
 70
     0
300
1:2
140
1.0
141
2.0
290
     0
  0
SCALE
  5
4A
102
{ACAD_REACTORS
330
47
102
}
330
47
100
AcDbScale
 70
     0
300
1:4
140
1.0
141
4.0
290
     0
  0
SCALE
  5
4B
102
{ACAD_REACTORS
330
47
102
}
330
47
100
AcDbScale
 70
     0
300
1:5
140
1.0
141
5.0
290
     0
  0
SCALE
  5
4C
102
{ACAD_REACTORS
330
47
102
}
330
47
100
AcDbScale
 70
     0
300
1:8
140
1.0
141
8.0
290
     0
  0
SCALE
  5
4D
102
{ACAD_REACTORS
330
47
102
}
330
47
100
AcDbScale
 70
     0
300
1:10
140
1.0
141
10.0
290
     0
  0
SCALE
  5
4E
102
{ACAD_REACTORS
330
47
102
}
330
47
100
AcDbScale
 70
     0
300
1:16
140
1.0
141
16.0
290
     0
  0
SCALE
  5
4F
102
{ACAD_REACTORS
330
47
102
}
330
47
100
AcDbScale
 70
     0
300
1:20
140
1.0
141
20.0
290
     0
  0
SCALE
  5
50
102
{ACAD_REACTORS
330
47
102
}
330
47
100
AcDbScale
 70
     0
300
1:30
140
1.0
141
30.0
290
     0
  0
SCALE
  5
51
102
{ACAD_REACTORS
330
47
102
}
330
47
100
AcDbScale
 70
     0
300
1:40
140
1.0
141
40.0
290
     0
  0
SCALE
  5
52
102
{ACAD_REACTORS
330
47
102
}
330
47
100
AcDbScale
 70
     0
300
1:50
140
1.0
141
50.0
290
     0
  0
SCALE
  5
53
102
{ACAD_REACTORS
330
47
102
}
330
47
100
AcDbScale
 70
     0
300
1:100
140
1.0
141
100.0
290
     0
  0
SCALE
  5
54
102
{ACAD_REACTORS
330
47
102
}
330
47
100
AcDbScale
 70
     0
300
2:1
140
2.0
141
1.0
290
     0
  0
SCALE
  5
55
102
{ACAD_REACTORS
330
47
102
}
330
47
100
AcDbScale
 70
     0
300
4:1
140
4.0
141
1.0
290
     0
  0
SCALE
  5
56
102
{ACAD_REACTORS
330
47
102
}
330
47
100
AcDbScale
 70
     0
300
8:1
140
8.0
141
1.0
290
     0
  0
SCALE
  5
57
102
{ACAD_REACTORS
330
47
102
}
330
47
100
AcDbScale
 70
     0
300
10:1
140
10.0
141
1.0
290
     0
  0
SCALE
  5
58
102
{ACAD_REACTORS
330
47
102
}
330
47
100
AcDbScale
 70
     0
300
100:1
140
100.0
141
1.0
290
     0
  0
SCALE
  5
59
102
{ACAD_REACTORS
330
47
102
}
330
47
100
AcDbScale
 70
     0
300
1/128" = 1'-0"
140
0.0078125
141
12.0
290
     0
  0
SCALE
  5
5A
102
{ACAD_REACTORS
330
47
102
}
330
47
100
AcDbScale
 70
     0
300
1/64" = 1'-0"
140
0.015625
141
12.0
290
     0
  0
SCALE
  5
5B
102
{ACAD_REACTORS
330
47
102
}
330
47
100
AcDbScale
 70
     0
300
1/32" = 1'-0"
140
0.03125
141
12.0
290
     0
  0
SCALE
  5
5C
102
{ACAD_REACTORS
330
47
102
}
330
47
100
AcDbScale
 70
     0
300
1/16" = 1'-0"
140
0.0625
141
12.0
290
     0
  0
SCALE
  5
5D
102
{ACAD_REACTORS
330
47
102
}
330
47
100
AcDbScale
 70
     0
300
3/32" = 1'-0"
140
0.09375
141
12.0
290
     0
  0
SCALE
  5
5E
102
{ACAD_REACTORS
330
47
102
}
330
47
100
AcDbScale
 70
     0
300
1/8" = 1'-0"
140
0.125
141
12.0
290
     0
  0
SCALE
  5
5F
102
{ACAD_REACTORS
330
47
102
}
330
47
100
AcDbScale
 70
     0
300
3/16" = 1'-0"
140
0.1875
141
12.0
290
     0
  0
SCALE
  5
60
102
{ACAD_REACTORS
330
47
102
}
330
47
100
AcDbScale
 70
     0
300
1/4" = 1'-0"
140
0.25
141
12.0
290
     0
  0
SCALE
  5
61
102
{ACAD_REACTORS
330
47
102
}
330
47
100
AcDbScale
 70
     0
300
3/8" = 1'-0"
140
0.375
141
12.0
290
     0
  0
SCALE
  5
62
102
{ACAD_REACTORS
330
47
102
}
330
47
100
AcDbScale
 70
     0
300
1/2" = 1'-0"
140
0.5
141
12.0
290
     0
  0
SCALE
  5
63
102
{ACAD_REACTORS
330
47
102
}
330
47
100
AcDbScale
 70
     0
300
3/4" = 1'-0"
140
0.75
141
12.0
290
     0
  0
SCALE
  5
64
102
{ACAD_REACTORS
330
47
102
}
330
47
100
AcDbScale
 70
     0
300
1" = 1'-0"
140
1.0
141
12.0
290
     0
  0
SCALE
  5
65
102
{ACAD_REACTORS
330
47
102
}
330
47
100
AcDbScale
 70
     0
300
1-1/2" = 1'-0"
140
1.5
141
12.0
290
     0
  0
SCALE
  5
66
102
{ACAD_REACTORS
330
47
102
}
330
47
100
AcDbScale
 70
     0
300
3" = 1'-0"
140
3.0
141
12.0
290
     0
  0
SCALE
  5
67
102
{ACAD_REACTORS
330
47
102
}
330
47
100
AcDbScale
 70
     0
300
6" = 1'-0"
140
6.0
141
12.0
290
     0
  0
SCALE
  5
68
102
{ACAD_REACTORS
330
47
102
}
330
47
100
AcDbScale
 70
     0
300
1'-0" = 1'-0"
140
12.0
141
12.0
290
     0
  0
ENDSEC
  0
EOF
